Сплин «Три аккорда» — тексты песен и аккорды

Романс



Чат рулетка без регистрации

видеочат рунетки

318  
A7           Dm     A7           Dm
   И лампа не горит, и врут календари,
  Gm              F                  Gm       A
   И если ты давно хотела что-то мне сказать,
       Dm
   То говори.

Любой обманчив звук. Страшнее тишина,
Когда в самый разгар веселья паадает из рук
Бокал вина.

И черный кабинет, и ждет в стволе патрон.
Так тихо, что я слышу, как идет на глубине
Вагон метро.

Между куплетами проигрыш: Gm F Gm A Dm A7 Dm

На площади полки. Темно в конце строки.
И в телефонной трубке эти много лет спустя
Одни гудки.

И где-то хлопнет дверь, и дрогнут провода.
Привет! Мы будем счастливы теперь 
И навсегда.                       / 2 раза

  Видеоуроки          
Подбор добавил Michael 20.01.2011
53  
E7                         Am                         
E||--------------------------|----------------------0-----|
B||-----------0--------0-----|-----------0h-1-------------|
G||--------1-----1--------1--|--------2-------2--------2--|
D||-----0-----------0--------|-----2-------------2--------|
A||--2-----------------------|--0-------------------------|
E||--------------------------|----------------------------|


  E7                           Am                         
----------------------------|----------------------0-----|
-------------0--------0-----|-----------0h-1-------------|
----------1-----1--------1--|--------2-------2--------2--|
-------0-----------0--------|-----2-------------2--------|
--2-------------------------|--0-------------------------|
----------------------------|----------------------------|


  Dm                           C                          
-----------0h-1-------1-----|----------------------------|
--------3-------3--------3--|-----------0h-1-------1-----|
-----2-------------2--------|--------0-------0--------0--|
--0-------------------------|-----2-------------2--------|
----------------------------|--3-------------------------|
----------------------------|----------------------------|


  Dm          E              Am                         
-----------1--------------|----------------------0-----|
--------3--------------0--|-----------0h-1-------------|
-----2--------------1-----|--------2-------2--------2--|
--0--------------2--------|-----2-------------2--------|
--------------2-----------|--0-------------------------|
--------------------------|----------------------------|


И лампа не горит, и врут календари,
И если ты давно хотела что-то мне сказать,
То говори.

Любой обманчив звук. Страшнее тишина,
Когда в самый разгар веселья падает из рук
Бокал вина.

И черный кабинет, и ждет в стволе патрон.
Так тихо, что я слышу, как идет на глубине
Вагон метро.

проигрыш.

На площади полки. Темно в конце строки.
И в телефонной трубке эти много лет спустя
Одни гудки.

И где-то хлопнет дверь, и дрогнут провода.
Привет! Мы будем счастливы теперь 
И навсегда.

  Видеоуроки          
Подбор добавил Александр 15.11.2010
21  
Вступление и основная часть:
    Dm/F		       Am
E||--------------------------|--------------------0-----|
B||-----------3--------3-----|----------0h1-------------|
G||--------2--------2-----2--|--------2-----2--------2--|
D||-----3--------3-----------|-----2-----------2--------|x2
A||--0-----------------------|--0-----------------------|
E||--------------------------|--------------------------|

    Dm			       C
E||----------0h1-------1-----|--------------------0-----|
B||--------3--------3-----3--|----------0h1-------------|
G||-----2--------2-----------|--------0-----0--------0--|
D||--0-----------------------|-----2-----------2--------|
A||--------------------------|--3-----------------------|
E||--------------------------|--------------------------|

    Dm	         C	       Am
E||-----------1--------------|--------------------0-----||
B||--------3--------------1--|----------0h1-------------||
G||-----2--------------0-----|--------2-----2--------2--||
D||--0--------------2--------|-----2-----------2--------||
A||--------------3-----------|--0-----------------------||
E||--------------------------|--------------------------||

Вся песня играется таким перебором. Слушайте мелодию.


И лампа не горит, и врут календари,
И если ты давно хотела что-то мне сказать,
То говори.
Любой обманчив звук. Страшнее тишина,
Когда в самый разгар веселья паадает из рук
Бокал вина.
И чёрный кабинет, и ждёт в стволе патрон.
Так тихо, что я слышу, как идёт на глубине
Вагон метро.

На площади полки. Темно в конце строки.
И в телефонной трубке эти много лет спустя
Одни гудки.
И где-то хлопнет дверь, и дрогнут провода.
Привет! Мы будем счастливы теперь
И навсегда.
Привет! Мы будем счастливы теперь
И навсегда.


Dm/F	[003231]
Dm	[000231]
Am	[002210]
C	[332010]

  Видеоуроки          
14  
A7           Dm     A7           Dm
   И лампа не горит, и врут календари,
  Gm              F                  Gm       A
   И если ты давно хотела что-то мне сказать,
       Dm
   То говори.

Любой обманчив звук. Страшнее тишина,
Когда в самый разгар веселья паадает из рук
Бокал вина.

И черный кабинет, и ждет в стволе патрон.
Так тихо, что я слышу, как идет на глубине
Вагон метро.

Между куплетами проигрыш: Gm F Gm A Dm A7 Dm

На площади полки. Темно в конце строки.
И в телефонной трубке эти много лет спустя
Одни гудки.

И где-то хлопнет дверь, и дрогнут провода.
Привет! Мы будем счастливы теперь 
И навсегда.                       / 2 раза

  Видеоуроки          
Подбор добавила Ludmila 08.11.2010
8  
A7  Dm  A7  Dm  Gdim  F  Gm  A7  Dm	 
A7                    Dm  A7                    Dm
   И лампа не горит     и врут календари
Gdim                F                                 Gm  A7          Dm
   И если ты давно хотела что-то мне сказать   то говори
 	
Любой обманчив звук страшнее - тишина,
Когда в самый разгар веселья падает из рук бокал вина

И черный кабинет и ждет в стволе патрон
Так тихо что я слышу как идет на глубине вагон метро

      Gdim  F  Gm  A7  Dm

На площади полки темно в конце строки
И в телефонной трубке эти много лет спустя - одни гудки

И где-то хлопнет дверь и дрогнут провода
Привет! Мы будем счастливы теперь и навсегда   2р

  Видеоуроки          
Подбор добавил Стас 02.03.2011
6  
А. Васильев)

G7            Cm
И лампа не горит,
G7             Cm
И врут календари,
Fm            D#                      Fm  G7
И если ты давно хотела что-то мне сказать,
        Cm
То говори.

Любой обманчив звук.
Страшнее тишина,
Когда в самый разгар веселья падает из рук
Бокал вина.

И чёрный кабинет,
И ждёт в стволе патрон.
Так тихо, что я слышу, как идёт на глубине
Вагон метро.

На площади полки.
Темно в конце строки.
И в телефонной трубке эти много лет спустя
Одни гудки.

И где-то хлопнет дверь,
И дрогнут провода.
Привет! Мы будем счастливы теперь
И навсегда.
Привет! Мы будем счастливы теперь
И навсегда.

  Видеоуроки          
Подбор добавил Александр 23.10.2010
4  
Вступление и основная часть:
    Dm/F		       Am
E||--------------------------|--------------------0-----|
B||-----------3--------3-----|----------0h1-------------|
G||--------2--------2-----2--|--------2-----2--------2--|
D||-----3--------3-----------|-----2-----------2--------|x2
A||--0-----------------------|--0-----------------------|
E||--------------------------|--------------------------|

    Dm			       C
E||----------0h1-------1-----|--------------------0-----|
B||--------3--------3-----3--|----------0h1-------------|
G||-----2--------2-----------|--------0-----0--------0--|
D||--0-----------------------|-----2-----------2--------|
A||--------------------------|--3-----------------------|
E||--------------------------|--------------------------|

    Dm	         C	       Am
E||-----------1--------------|--------------------0-----||
B||--------3--------------1--|----------0h1-------------||
G||-----2--------------0-----|--------2-----2--------2--||
D||--0--------------2--------|-----2-----------2--------||
A||--------------3-----------|--0-----------------------||
E||--------------------------|--------------------------||

Вся песня играется таким перебором. Слушайте мелодию.


И лампа не горит, и врут календари,
И если ты давно хотела что-то мне сказать,
То говори.
Любой обманчив звук. Страшнее тишина,
Когда в самый разгар веселья паадает из рук
Бокал вина.
И чёрный кабинет, и ждёт в стволе патрон.
Так тихо, что я слышу, как идёт на глубине
Вагон метро.

На площади полки. Темно в конце строки.
И в телефонной трубке эти много лет спустя
Одни гудки.
И где-то хлопнет дверь, и дрогнут провода.
Привет! Мы будем счастливы теперь
И навсегда.
Привет! Мы будем счастливы теперь
И навсегда.


Dm/F	[003231]
Dm	[000231]
Am	[002210]
C	[332010]

  Видеоуроки          
Подбор добавил Иван 03.10.2010
2  
Вступление и основная часть:
    Dm/F		       Am
E||--------------------------|--------------------0-----|
B||-----------3--------3-----|----------0h1-------------|
G||--------2--------2-----2--|--------2-----2--------2--|
D||-----3--------3-----------|-----2-----------2--------|x2
A||--0-----------------------|--0-----------------------|
E||--------------------------|--------------------------|

    Dm			       C
E||----------0h1-------1-----|--------------------0-----|
B||--------3--------3-----3--|----------0h1-------------|
G||-----2--------2-----------|--------0-----0--------0--|
D||--0-----------------------|-----2-----------2--------|
A||--------------------------|--3-----------------------|
E||--------------------------|--------------------------|

    Dm	         C	       Am
E||-----------1--------------|--------------------0-----||
B||--------3--------------1--|----------0h1-------------||
G||-----2--------------0-----|--------2-----2--------2--||
D||--0--------------2--------|-----2-----------2--------||
A||--------------3-----------|--0-----------------------||
E||--------------------------|--------------------------||

Вся песня играется таким перебором. Слушайте мелодию.


И лампа не горит, и врут календари,
И если ты давно хотела что-то мне сказать,
То говори.
Любой обманчив звук. Страшнее тишина,
Когда в самый разгар веселья паадает из рук
Бокал вина.
И чёрный кабинет, и ждёт в стволе патрон.
Так тихо, что я слышу, как идёт на глубине
Вагон метро.

На площади полки. Темно в конце строки.
И в телефонной трубке эти много лет спустя
Одни гудки.
И где-то хлопнет дверь, и дрогнут провода.
Привет! Мы будем счастливы теперь
И навсегда.
Привет! Мы будем счастливы теперь
И навсегда.


Dm/F	[003231]
Dm	[000231]
Am	[002210]
C	[332010]

  Видеоуроки          
Подбор добавил Иван 03.10.2010
1  
Вступление и основная часть:
    Dm/F		       Am
E||--------------------------|--------------------0-----|
B||-----------3--------3-----|----------0h1-------------|
G||--------2--------2-----2--|--------2-----2--------2--|
D||-----3--------3-----------|-----2-----------2--------|x2
A||--0-----------------------|--0-----------------------|
E||--------------------------|--------------------------|

    Dm			       C
E||----------0h1-------1-----|--------------------0-----|
B||--------3--------3-----3--|----------0h1-------------|
G||-----2--------2-----------|--------0-----0--------0--|
D||--0-----------------------|-----2-----------2--------|
A||--------------------------|--3-----------------------|
E||--------------------------|--------------------------|

    Dm	         C	       Am
E||-----------1--------------|--------------------0-----||
B||--------3--------------1--|----------0h1-------------||
G||-----2--------------0-----|--------2-----2--------2--||
D||--0--------------2--------|-----2-----------2--------||
A||--------------3-----------|--0-----------------------||
E||--------------------------|--------------------------||

Вся песня играется таким перебором. Слушайте мелодию.

И лампа не горит, и врут календари,
И если ты давно хотела что-то мне сказать,
То говори.
Любой обманчив звук. Страшнее тишина,
Когда в самый разгар веселья падает из рук
Бокал вина.
И чёрный кабинет, и ждёт в стволе патрон.
Так тихо, что я слышу, как идёт на глубине
Вагон метро.

На площади полки. Темно в конце строки.
И в телефонной трубке эти много лет спустя
Одни гудки.
И где-то хлопнет дверь, и дрогнут провода.
Привет! Мы будем счастливы теперь
И навсегда.
Привет! Мы будем счастливы теперь
И навсегда.

Dm/F	[003231]
Dm	[000231]
Am	[002210]
C	[332010]

  Видеоуроки          
Подбор добавил Артем 01.04.2012

Сплин ТОП-5 песен

Выхода нет
Мое сердце
Новые люди
Orbit без сахара
Двое не спят

«Три аккорда» — музыкальный сайт для гитаристов: аккорды, видеоуроки.

18+ Интернет-ресурс «Три аккорда» предназначен для пользователей старше 18 лет.

Предупреждение: тексты некоторых песен могут содержать нецензурную брань.

2011—2014 «Три аккорда» | Группа ВКонтакте

© Уважаемые посетители сайта, помните об авторских правах: авторские права на предоставленную информацию принадлежат правообладателям.

Размещенные видео уроки вставлены на сайт с помощью официального сервиса вставки Ютуба с каналов преподавателей и школ.
Аккорды и тексты песен публикуются на сайте согласно ст. 1274 (ч.3) и ст. 1274 ГК РФ (ч.1 пп. 1 и 2) в учебных целях, иное использование их (в том числе коммерческое) не допускается.
По вопросам связанными с авторскими и смежными правами пишите на 3akk.ru@gmail.com.