Вход, регистрация Мой песенник
Видеоуроки Песенник Тюнер
Ария

Беспечный ангел

198    
Аудио: ВК, ЯМ, Last.fm     Видео: ВК, YT
Оригинальная тональность D#m
Вступление:
E|------------------------------------|
H|----------0-------1-------3-------3-|
G|----------0-0-----0--0-0--0--0-0--0-|
D|-----0---2---2---2--2-2--0--0-0--0--|
A|--0-2---2-----2-3-------------------|
E|-3-----0----------------3-------3---|

E|----------------------------3-----|
H|----------0-------1---------3-----|
G|----------0-0-----0--0-0---0--0---|
D|-----0---2---2---2--2-2---0----0--|
A|--0-2---2-----2-3--------2--------|
E|-3-----0----------------3-------3-|

Куплет играется аналогично вступлению.
            Em
Этот парень был из тех,
    C            G
Кто просто любит жизнь.
                  Em
Любит праздники и громкий смех,
C            D
Пыль дорог и ветра свист.
       Am        G
Он был везде и всегда своим,
           D          Am
Влюблял в себя целый свет,
D                            Em
 И гнал всегда свой байк, а не лимузин -
C                     D
 Таких друзей больше нет.

И в гостиной при свечах
Он танцевал, как бог.
Но зато менялся на глазах,
Только вспомнит шум дорог.
Все, что имел, тут же тратил
И, за порог сделав шаг,
Мой друг давал команду братьям,
Вверх поднимая кулак.
	               Em     C     D
Припев:	  Ты - летящий вдаль, вдаль ангел.
	               C      H7     Em
	  Ты - летящий вдаль, вдаль ангел.
	      C                        D
	  Ты один только друг, друг на все времена,
	      C               D
	  Немного таких среди нас.
	               Am       C       G
	  Ты - летящий вдаль беспечный ангел.

Под гитарный жесткий рок,
Который так любил,
На Харлее он домчать нас мог
До небес и звезд любых.
Но он исчез и никто не знал
Куда теперь мчит его байк.
Один бродяга нам сказал,
Что он отправился в рай.

  Ты - летящий вдаль, вдаль ангел.
  Ты - летящий вдаль, вдаль ангел.
  Но стал союзником рая в ту ночь
  Против тебя одного.
  Ты - летящий вдаль, вдаль ангел.
  Ты - летящий вдаль беспечный ангел.

  Ты - летящий вдаль, вдаль ангел.
  Ты - летящий вдаль, вдаль ангел.
  Но стал союзником рая в ту ночь
  Против тебя одного.
  Ты - летящий вдаль, вдаль ангел.
  Ты - летящий вдаль беспечный ангел.


Подбор добавил Андрей Сургучёв 22.06.2011

Ария

Беспечный ангел

23    
Аудио: ВК, ЯМ, Last.fm     Видео: ВК, YT
Оригинальная тональность D#m
Вступление:
E|------------------------------------|
H|----------0-------1-------3-------3-|
G|----------0-0-----0--0-0--0--0-0--0-|
D|-----0---2---2---2--2-2--0--0-0--0--|
A|--0-2---2-----2-3-------------------|
E|-3-----0----------------3-------3---|

E|----------------------------3-----|
H|----------0-------1---------3-----|
G|----------0-0-----0--0-0---0--0---|
D|-----0---2---2---2--2-2---0----0--|
A|--0-2---2-----2-3--------2--------|
E|-3-----0----------------3-------3-|

Куплет играется аналогично вступлению.
            Em
Этот парень был из тех,
    C            G
Кто просто любит жизнь.
                  Em
Любит праздники и громкий смех,
C            D
Пыль дорог и ветра свист.
       Am        G
Он был везде и всегда своим,
           D          Am
Влюблял в себя целый свет,
D                            Em
 И гнал всегда свой байк, а не лимузин -
C                     D
 Таких друзей больше нет.

И в гостиной при свечах
Он танцевал, как бог.
Но зато менялся на глазах,
Только вспомнит шум дорог.
Все, что имел, тут же тратил
И, за порог сделав шаг,
Мой друг давал команду братьям,
Вверх поднимая кулак.
	               Em     C     D
Припев:	  Ты - летящий вдаль, вдаль ангел.
	               C      H7     Em
	  Ты - летящий вдаль, вдаль ангел.
	      C                        D
	  Ты один только друг, друг на все времена,
	      C               D
	  Немного таких среди нас.
	               Am       C       G
	  Ты - летящий вдаль беспечный ангел.

Под гитарный жесткий рок,
Который так любил,
На Харлее он домчать нас мог
До небес и звезд любых.
Но он исчез и никто не знал
Куда теперь мчит его байк.
Один бродяга нам сказал,
Что он отправился в рай.

  Ты - летящий вдаль, вдаль ангел.
  Ты - летящий вдаль, вдаль ангел.
  Но стал союзником рая в ту ночь
  Против тебя одного.
  Ты - летящий вдаль, вдаль ангел.
  Ты - летящий вдаль беспечный ангел.

  Ты - летящий вдаль, вдаль ангел.
  Ты - летящий вдаль, вдаль ангел.
  Но стал союзником рая в ту ночь
  Против тебя одного.
  Ты - летящий вдаль, вдаль ангел.
  Ты - летящий вдаль беспечный ангел.


Подбор добавила Екатерина Жевлакова 28.11.2010

Ария

Беспечный ангел

14    
Аудио: ВК, ЯМ, Last.fm     Видео: ВК, YT
Оригинальная тональность D#m
Вступление:
E|------------------------------------|
H|----------0-------1-------3-------3-|
G|----------0-0-----0--0-0--0--0-0--0-|
D|-----0---2---2---2--2-2--0--0-0--0--|
A|--0-2---2-----2-3-------------------|
E|-3-----0----------------3-------3---|

E|----------------------------3-----|
H|----------0-------1---------3-----|
G|----------0-0-----0--0-0---0--0---|
D|-----0---2---2---2--2-2---0----0--|
A|--0-2---2-----2-3--------2--------|
E|-3-----0----------------3-------3-|

Куплет играется аналогично вступлению.
            Em
Этот парень был из тех,
    C            G
Кто просто любит жизнь.
                  Em
Любит праздники и громкий смех,
C            D
Пыль дорог и ветра свист.
       Am        G
Он был везде и всегда своим,
           D          Am
Влюблял в себя целый свет,
D                            Em
 И гнал всегда свой байк, а не лимузин -
C                     D
 Таких друзей больше нет.

И в гостиной при свечах
Он танцевал, как бог.
Но зато менялся на глазах,
Только вспомнит шум дорог.
Все, что имел, тут же тратил
И, за порог сделав шаг,
Мой друг давал команду братьям,
Вверх поднимая кулак.
	               Em     C     D
Припев:	  Ты - летящий вдаль, вдаль ангел.
	               C      H7     Em
	  Ты - летящий вдаль, вдаль ангел.
	      C                        D
	  Ты один только друг, друг на все времена,
	      C               D
	  Немного таких среди нас.
	               Am       C       G
	  Ты - летящий вдаль беспечный ангел.

Под гитарный жесткий рок,
Который так любил,
На Харлее он домчать нас мог
До небес и звезд любых.
Но он исчез и никто не знал
Куда теперь мчит его байк.
Один бродяга нам сказал,
Что он отправился в рай.

  Ты - летящий вдаль, вдаль ангел.
  Ты - летящий вдаль, вдаль ангел.
  Но стал союзником рая в ту ночь
  Против тебя одного.
  Ты - летящий вдаль, вдаль ангел.
  Ты - летящий вдаль беспечный ангел.

  Ты - летящий вдаль, вдаль ангел.
  Ты - летящий вдаль, вдаль ангел.
  Но стал союзником рая в ту ночь
  Против тебя одного.
  Ты - летящий вдаль, вдаль ангел.
  Ты - летящий вдаль беспечный ангел.


Подбор добавила Саша Винокурова 11.10.2010

Ария

Беспечный ангел

12    
Аудио: ВК, ЯМ, Last.fm     Видео: ВК, YT
            Em
Этот парень был из тех
    C            G
Кто просто любит жизнь
                  Em
Любит праздники и громкий смех
  C          D
Пыль дорог и ветра свист.
         Am        G
Он был везде и всегда своим
   D                Am
Влюблял в себя целый свет
   D               Em
И гнал свой Байк, а не лимузин
      C             D
Таких друзей больше нет...

       *****
            Em
И в гостинной при свечах
    C            G
Он танцевал, как бог
                  Em
Но зато менялся на глазах
  C          D
Только вспомнит шум дорог
         Am        G
Все что имел - тут же тратил
   D                Am
И за порог сделав шаг
   D               Em
Он вдруг давал команду братьям
      C             D
Вверх поднимая кулак...

             Em    C     D
П:Ты летящий вдаль, вдаль Ангел,
            C     Н7    Em
 Ты летящий вдаль, вдаль Ангел...
     C                 D
 Ты один только друг - друг на все времена
    C                 D
 Не много таких среди нас...
            Am    C         G
 Ты летящий вдаль Беспечный Ангел.

            Em
Под гитарный жесткий Рок
    C            G
Который так любил
                  Em
На "Харлее" он домчать нас мог
  C          D
До небес и звезд любых.
         Am        G
Но он исчез и никто не знал
   D                Am
Куда теперь мчит его байк
   D               Em
Один бродяга нам сказал
      C             D
Что он отправился в рай!

             Em     C     G
  Ты летящий вдаль, вдаль Ангел
            C     Н7    Em
  Ты летящий вдаль, вдаль Ангел.
     C                 D
  Но ад стал союзником рая в ту ночь
   C              D
  Бросив тебя одного...
             Am      C       G
  Ты летящий вдаль беспечный Ангел.
              Am     C    D
  И летящий в даль беспечный ангел



Ария

Беспечный ангел

11    
Аудио: ВК, ЯМ, Last.fm     Видео: ВК, YT
Оригинальная тональность D#m
Вступление:
E|------------------------------------|
H|----------0-------1-------3-------3-|
G|----------0-0-----0--0-0--0--0-0--0-|
D|-----0---2---2---2--2-2--0--0-0--0--|
A|--0-2---2-----2-3-------------------|
E|-3-----0----------------3-------3---|

E|----------------------------3-----|
H|----------0-------1---------3-----|
G|----------0-0-----0--0-0---0--0---|
D|-----0---2---2---2--2-2---0----0--|
A|--0-2---2-----2-3--------2--------|
E|-3-----0----------------3-------3-|

Куплет играется аналогично вступлению.
            Em
Этот парень был из тех,
    C            G
Кто просто любит жизнь.
                  Em
Любит праздники и громкий смех,
C            D
Пыль дорог и ветра свист.
       Am        G
Он был везде и всегда своим,
           D          Am
Влюблял в себя целый свет,
D                            Em
 И гнал всегда свой байк, а не лимузин -
C                     D
 Таких друзей больше нет.

И в гостиной при свечах
Он танцевал, как бог.
Но зато менялся на глазах,
Только вспомнит шум дорог.
Все, что имел, тут же тратил
И, за порог сделав шаг,
Мой друг давал команду братьям,
Вверх поднимая кулак.
	               Em     C     D
Припев:	  Ты - летящий вдаль, вдаль ангел.
	               C      H7     Em
	  Ты - летящий вдаль, вдаль ангел.
	      C                        D
	  Ты один только друг, друг на все времена,
	      C               D
	  Немного таких среди нас.
	               Am       C       G
	  Ты - летящий вдаль беспечный ангел.

Под гитарный жесткий рок,
Который так любил,
На Харлее он домчать нас мог
До небес и звезд любых.
Но он исчез и никто не знал
Куда теперь мчит его байк.
Один бродяга нам сказал,
Что он отправился в рай.

  Ты - летящий вдаль, вдаль ангел.
  Ты - летящий вдаль, вдаль ангел.
  Но стал союзником рая в ту ночь
  Против тебя одного.
  Ты - летящий вдаль, вдаль ангел.
  Ты - летящий вдаль беспечный ангел.

  Ты - летящий вдаль, вдаль ангел.
  Ты - летящий вдаль, вдаль ангел.
  Но стал союзником рая в ту ночь
  Против тебя одного.
  Ты - летящий вдаль, вдаль ангел.
  Ты - летящий вдаль беспечный ангел.



Ария

Беспечный ангел

11    
Аудио: ВК, ЯМ, Last.fm     Видео: ВК, YT
Оригинальная тональность D#m, для удобства игры эту песню записал в ми-миноре (Em) :)
Вступление:  
E------------------------------------- 
H-----------0-------1-------3-------3- 
G----------0-0-----0--0-0--0--0-0--0-- 
D-----0---2---2---2--2-2--0--0-0--0--- 
A--0-2---2-----2-3-------------------- 
E-3-----0----------------3-------3---- 

E----------------------------3-----|
H-----------0-------1---------3----|
G----------0-0-----0--0-0---0--0---|
D-----0---2---2---2--2-2---0----0--|
A--0-2---2-----2-3--------2--------|
E-3-----0----------------3-------3-|

Куплет играется аналогично вступлению. 
            Em
Этот парень был из тех,
    C            G
Кто просто любит жизнь.
                  Em
Любит праздники и громкий смех,
C            D
Пыль дорог и ветра свист.
       Am        G
Он был везде и всегда своим,
           D          Am
Влюблял в себя целый свет,
D                            Em
 И гнал всегда свой байк, а не лимузин -
C                     D
 Таких друзей больше нет.

И в гостиной при свечах
Он танцевал, как бог.
Но зато менялся на глазах,
Только вспомнит шум дорог.
Все, что имел, тут же тратил
И, за порог сделав шаг,
Мой друг давал команду братьям,
Вверх поднимая кулак.
	               Em     C     D
Припев:	  Ты - летящий вдаль, вдаль ангел.
	               C      H7     Em
	  Ты - летящий вдаль, вдаль ангел.
	      C                        D
	  Ты один только друг, друг на все времена,
	      C               D
	  Немного таких среди нас.
	               Am       C       G
	  Ты - летящий вдаль беспечный ангел.

Под гитарный жесткий рок,
Который так любил,
На Харлее он домчать нас мог
До небес и звезд любых.
Но он исчез и никто не знал
Куда теперь мчит его байк.
Один бродяга нам сказал,
Что он отправился в рай.

  Ты - летящий вдаль, вдаль ангел.
  Ты - летящий вдаль, вдаль ангел.
  Но стал союзником рая в ту ночь
  Против тебя одного.
  Ты - летящий вдаль, вдаль ангел.
  Ты - летящий вдаль беспечный ангел.


  Ты - летящий вдаль, вдаль ангел.
  Ты - летящий вдаль, вдаль ангел.
  Но стал союзником рая в ту ночь
  Против тебя одного.
  Ты - летящий вдаль, вдаль ангел.
  Ты - летящий вдаль беспечный ангел.


Подбор добавил Кирилл Семёнов 07.06.2011

Ария

Беспечный ангел

10    
Аудио: ВК, ЯМ, Last.fm     Видео: ВК, YT
 Em                     Am                G
Этот парень был из тех, кто просто любит жизнь
Em                              Am                  D
Любит праздники и громкий смех, пыль дорог и ветра свист
 Am             C
Он был везде и всегда своим
 D                    Am
Влюблял в себя целый свет
 D                  Em
И гнал свой байк, а не лимузин
C                    D
Таких друзей больше нет


припев:
              Am     C     D
Ты - летящий вдаль, вдаль ангел
              C      D    Em
Ты - летящий вдаль, вдаль ангел
    C                     D
Ты один только друг мой, на все времена
   C                D
Немного таких среди нас
              Am      C         D
Ты - летящай вдаль, беспечный ангел

И в гостиной при свечах, он танцевал как бог
Но зато менялся на глазах, только вспомнит шум дорог
Все, что имел, тут же тратил
И за порог сделав шаг
Мой друг давал команду братьям
Вверх поднимая кулак

припев тот же...

Под гитарный жесткий рок, который так любил
На Харлее он домчать нас мог до небес и звезд любых
Но он исчез и никто не знал
Куда теперь мчит его байк
Один бродяга нам сказал
Что он отправился в рай

Припев два раза:

Ты - летящий вдаль, вдаль ангел
Ты - летящий вдаль, вдаль ангел
Но ад стал союзником рая в ту ночь
Против тебя одного
Ты - летящай вдаль, беспечный ангел


Подбор добавил Семён Горелов 10.11.2010

Ария

Беспечный ангел

9    
Аудио: ВК, ЯМ, Last.fm     Видео: ВК, YT
Песня играется в тональности Gb, и гитару надо перестроить:
опустить строй на пол тона (один лад).
Проигрыш:

     G             Em                     C
eb|----------------|---------------------|---------------------|
Bb|----------------|-----------0---------|---------1-----------|
Gb|*---------------|---------0-----0-----|-------0-------0---0-|
Db|*-------------0-|-------2---------0---|-----2-------2-------|
Ab|--------0---2---|-----2-------------2-|-3-------------3-----|
Eb|----3-----------|-0-------------------|---------------------|

  G                           G

eb|--------------------------------||------------3------------||
Bb|----------3-----------------3---||---------3-----3---------||
Gb|-------0-------0----0-----0----*||-------0---------0------*||
Db|----0-------0-----------0------*||----0--------------0----*||
Ab|-----------------2--------------||-------------------------||
Eb|-3--------------------3---------||-3--------------------3--||

Куплет:

Этот парень был из тех...
    G         Em                C
eb|-----------|-------------------|----------------------------|
Bb|-----------|----------0--------|--------1-------------------|
Gb|-----------|--------0---0------|------0-----0---0-----------|
Db|--------0--|------2-------0----|----2-----2-----------------|
Ab|----0-2----|----2-----------2--|--3-----------3-------------|
Eb|--3--------|--0----------------|----------------------------|

 G
eb|------------------------------------------------------------|
Bb|------------3-----------------------3-----------------------|
Gb|--------0---------0-----0---------0-------------------------|
Db|----0----------0--------------0-----------------------------|
Ab|---------------------2--------------------------------------|
Eb|--3-----------------------3---------------------------------|

    G         Em                C
eb|-----------|-------------------|----------------------------|
Bb|-----------|----------0--------|--------1-------------------|
Gb|-----------|--------0---0------|------0-----0---0-----------|
Db|--------0--|------2-------0----|----2-----2-----------------|
Ab|----0-2----|----2-----------2--|--3-----------3-------------|
Eb|--3--------|--0----------------|----------------------------|

   D                        D
eb|--------2-3-2I3I2-------|--------2-0I2?0--------------------|
Bb|------3-----------3-----|------3---------3------------------|
Gb|----2---------------2---|----2-------------2----------------|
Db|--0---------------------|--0--------------------------------|
Ab|------------------------|-----------------------------------|
Eb|------------------------|-----------------------------------|

    Am                G                 D
eb|---------0-------|---------2-------|-------2-3-2Н3р2--------|
Bb|-------1---1-----|-------2---2-----|-----3-----------2------|
Gb|-----2-------2---|-----0-------0---|---2--------------------|
Db|---2-----------2-|---0-------------|-0----------------------|
Ab|-0---------------|-----------------|------------------------|
Eb|-----------------|-3-------------3-|------------------------|

 Am                D
eb|---------0-------|-------2-3-2Н3р2--------------------------|
Bb|-------1---1-----|-----3-----------3------------------------|
Gb|-----2-------2---|---2--------------------------------------|
Db|---2-----------2-|-0----------------------------------------|
Ab|-0---------------|------------------------------------------|
Eb|-----------------|------------------------------------------|

    Em
eb|-----------------|---------0-------|-2--3-3-3-2-------------|
Bb|---------0-------|-------1---1-----|-3--3-3-3-3-------------|
Gb|-------0---0-----|-----0-------0---|-2--2-2-2-2-------------|
Db|-----2-------2---|---2-----------2-|-0--------0-------------|
Ab|---2-----------2-|-3---------------|------------------------|
Eb|-0---------------|-----------------|------------------------|

Версия  2 :
 Повторение Версия  1. (Добавляются перкуссии.)

Chorus 1 :

 Врубаем дисторшен + продолжют звучать аккорды акустики--------⁄
    Em   C     D      C    Н    Em     C    D     C    D
eb|-----------------|----------------|---------|---------------|
Bb|-----------------|----------------|---------|---------------|
Gb|------5-----7----|-5----4---------|-5----7--|--5----7⁄------|
Db|-2----5-----7----|-5----4----2----|-5----7--|--5----7⁄------|
Ab|-2----3-----5----|-3----2----2----|-3----5--|--3----5⁄------|
Eb|-0---------------|-----------0----|---------|---------------|

Чистый звук---------------------------------------------------⁄
    Am                C                 G
eb|---------0-------|---------0-------|---------3--------------|
Bb|-------1---1-----|-------1---1-----|-------3---3------------|
Gb|-----2-------2---|-----0-------0---|-----0-------0----------|
Db|---2-------------|---2-------------|---0-----------0--------|
Ab|-0-------------0-|-3-------------3-|------------------------|
Eb|-----------------|-----------------|-3---------------3------|

Solo: ( Здесь играют две гитары одновременно )

G         Em                C                 G
eb|----------|-----------------|-------------------------------|
Bb|----------|---------0-------|-------1-----------------------|
Gb|*---------|-------0---0-----|-----0-----0---0---------------|
Db|*-------0-|-----2-------0---|---2-----2---------------------|
Ab|----0-2---|---2-----------2-|-3-----------3-----------------|
Eb|--3-------|-0---------------|-------------------------------|

  /--------------- 1 ---------|/------------- 2 ----|
                     G
eb|---------------------------||---------3--------------------||
Bb|-------3---------------3---||-------3---3------------------||
Gb|-----0-----0---------0----*||-----0-------0---------------*||
Db|---0-----0-----0---0------*||---0-----------0-------------*||
Ab|-------------2-------------||------------------------------||
Eb|-3---------------3---------||-3---------------3------------||

eb|--------------|---------------------|-----------------------|
Bb|--------------|--3/5---5---5--5⁄3---|--3/5---5---5⁄3--3/5---|
Gb|*--4⁄2--0--2--|---------------------|-----------------------|
Db|*-------------|---------------------|-----------------------|
Ab|--------------|---------------------|-----------------------|
Eb|--------------|---------------------|-----------------------|

   /------------------ 1 -----|/------------- 2 ----|
eb|---------------------------||-3~~~-------------------------||
Bb|-3-------------------------||------------------------------||
Gb|--------------------------*||-----------------------------*||
Db|--------------------------*||-----------------------------*||
Ab|---------------------------||------------------------------||
Eb|---------------------------||------------------------------||

Версия  3: (Как и в соло, здесь играют две гитары.
Вторая подыгрывает первой).

    G         Em                C
eb|---------|-----------------|--------------------------------|
Bb|---------|---------0-------|-------1------------------------|
Gb|---------|-------0---0-----|-----0-----0---0----------------|
Db|-------0-|-----2-------0---|---2-----2----------------------|
Ab|---0-2---|---2-----------2-|-3-----------3------------------|
Eb|-3-------|-0---------------|--------------------------------|

 G
eb|------------------------------------------------------------|
Bb|-----------3---------------------3--------------------------|
Gb|--------0-------0----0--------0-----------------------------|
Db|-----0-------0-------------0--------------------------------|
Ab|-------------------2----------------------------------------|
Eb|--3---------------------3-----------------------------------|

eb|------------------------------------------------------------|
Bb|-----------------------------------------------8⁄7----------|
Gb|---------------------------------------------------7~~~-----|
Db|------------------------------------------------------------|
Ab|------------------------------------------------------------|
Eb|------------------------------------------------------------|

    G         Em                C
eb|---------|-----------------|--------------------------------|
Bb|---------|---------0-------|-------1------------------------|
Gb|---------|-------0---0-----|-----0-----0---0----------------|
Db|-------0-|-----2-------0---|---2-----2----------------------|
Ab|---0-2---|---2-----------2-|-3-----------3------------------|
Eb|-3-------|-0---------------|--------------------------------|

 D                     D
eb|-------2-3-2Н3Н2-----|-------2-0Н2р0------------------------|
Bb|-----3-----------3---|-----3---------3----------------------|
Gb|---2---------------2-|---2-------------2--------------------|
Db|-0-------------------|-0------------------------------------|
Ab|---------------------|--------------------------------------|
Eb|---------------------|--------------------------------------|

eb|----------------------------------|-------------------------|
Bb|-------------------------5------7-|----------------------5~-|
Gb|---------------------4/5----5/7---|------------------8⁄7----|
Db|----------------------------------|-------------------------|
Ab|----------------------------------|-------------------------|
Eb|----------------------------------|-------------------------|

   Am                G                 D
eb|---------0-------|---------2-------|-------2-3-2Н3р2--------|
Bb|-------1---1-----|-------2---2-----|-----3-----------2------|
Gb|-----2-------2---|-----0-------0---|---2--------------------|
Db|---2-----------2-|---0-------------|-0----------------------|
Ab|-0---------------|-----------------|------------------------|
Eb|-----------------|-3-------------3-|------------------------|

eb|------------------------------------------------------------|
Bb|-------------------3/5--------------------------------------|
Gb|-----------------------5~~~---------------------------------|
Db|------------------------------------------------------------|
Ab|------------------------------------------------------------|
Eb|------------------------------------------------------------|

   Em
eb|-----------------|---------0-------|-2--3-3---3-3---2-------|
Bb|---------0-------|-------1---1-----|-3--3-3---3-3---3-------|
Gb|-------0---0-----|-----0-------0---|-2--2-2---2-2---2-------|
Db|-----2-------2---|---2-----------2-|-0--------------0-------|
Ab|---2-----------2-|-3---------------|------------------------|
Eb|-0---------------|-----------------|------------------------|

eb|------------------------------------------------------------|
Bb|---------------------------------------------5-----7-----8--|
Gb|-----------------------------------------4/5---5/7---7/9----|
Db|------------------------------------------------------------|
Ab|------------------------------------------------------------|
Eb|------------------------------------------------------------|

Chorus 2 :

  Врубаем дисторшен + продолжют звучать аккорды акустики------⁄
    Em   C     D      Em   Н    Em     C    D      C    D
eb|-----------------|----------------|-----------|-------------|
Bb|-----------------|----------------|-----------|-------------|
Gb|------5-----7----|-3----4---------|-5----7----|-5----7⁄-----|
Db|-2----5-----7----|-5----4----2----|-5----7----|-5----7⁄-----|
Ab|-2----3-----5----|-3----2----2----|-3----5----|-3----5⁄-----|
Eb|-0---------------|-----------0----|-----------|-------------|

 Чистый звук---------------------------------------------------⁄
    Am                C                 G
eb|---------0-------|---------0-------|---------3--------------|
Bb|-----1-----1-----|-----1-----1-----|-----3-----3------------|
Gb|-------2-----2---|-------0-----0---|-------0-----0----------|
Db|---2-------------|---2-------------|---0-----------0--------|
Ab|-0-------------0-|-3-------------3-|------------------------|
Eb|-----------------|-----------------|-3---------------3------|

  G
|---------3-------|
|-----3-----3-----|
|-------0-----0---|
|---0-----------0-|
|-----------------|
|-3---------------|

 Врубаем дисторшен + продолжют звучать аккорды акустики--------⁄
    Em   C     D      Em   Н    Em     C    D      C    D
eb|-----------------|----------------|-----------|-------------|
Bb|-----------------|----------------|-----------|-------------|
Gb|------5-----7----|-3----4---------|-5----7----|-5----7⁄-----|
Db|-2----5-----7----|-3----4----2----|-5----7----|-5----7⁄-----|
Ab|-2----3-----5----|-2----2----2----|-3----5----|-3----5⁄-----|
Eb|-0---------------|-----------0----|-----------|-------------|

 Чистый звук---------------------------------------------------⁄
    Am                C                 G
eb|---------0-------|---------0-------|---------3--------------|
Bb|-----1-----1-----|-----1-----1-----|-----3-----3------------|
Gb|-------2-----2---|-------0-----0---|-------0-----0----------|
Db|---2-------------|---2-------------|---0-----------0--------|
Ab|-0-------------0-|-3-------------3-|------------------------|
Eb|-----------------|-----------------|-3---------------3------|

 Am   C    G
eb|-0---------0-------------2---2--2--2...2--------------------|
Bb|-1---------1------------2----2--2--2...2--------------------|
Gb|-2---------0-----------0-----0--0--0...0--------------------|
Db|-2---------2----------0------0--0--0...0--------------------|
Ab|-0---------3---------2-------2--2--2...2--------------------|
Eb|--------------------3--------3--3--3...3--------------------|

Куплет 1:
G           Em
Этот парень был из тех,
    C            G
Кто просто любит жизнь.

 G                Em
Любит праздники и громкий смех,
C            D
Пыль дорог и ветра свист.
       Am        G
Он был везде и всегда своим,
           D          Am
Влюблял в себя целый свет,
D                            Em
И гнал всегда свой байк, а не лимузин.
C                     D
Таких друзей больше нет.

Версия  2 :
И в гостиной при свечах
Он танцевал, как бог.
Но зато менялся на глазах,
Только вспомнит шум дорог.
Все, что имел, тут же тратил
И, за порог сделав шаг,
Мой друг давал команду братьям,
Вверх поднимая кулак.

Chorus 1 :
               E5     C5    D5
  Ты - летящий вдаль, вдаль ангел.
               C5     Н5    E5
  Ты - летящий вдаль, вдаль ангел.
          C5                   D5
  Ты один только друг, друг на все времена,
  C5                  D5
  Немного таких среди нас.
               Am       C       G
  Ты - летящий вдаль беспечный ангел.

Версия  3 :
Под гитарный жесткий рок,
Который так любил,
На Харлее он домчать нас мог
До небес и звезд любых.
Но он исчез и никто не знал
Куда теперь мчит его байк.
Один бродяга нам сказал,
Что он отправился в рай.

Chorus 2 :
  Ты - летящий вдаль, вдаль ангел.
  Ты - летящий вдаль, вдаль ангел.
  Но стал союзником рая в ту ночь
  Против тебя одного.

  Ты - летящий вдаль, вдаль ангел.
  Ты - летящий вдаль беспечный ангел.

  Ты - летящий вдаль, вдаль ангел.
  Ты - летящий вдаль, вдаль ангел.
  Но стал союзником рая в ту ночь
  Против тебя одного.


  Ты - летящий вдаль, вдаль ангел.
  Ты - летящий вдаль беспечный ангел.



Ария

Беспечный ангел

9    
Аудио: ВК, ЯМ, Last.fm     Видео: ВК, YT
Em 
Этот парень был из тех, 
    C G 
Кто просто любит жизнь. 
                  Em 
Любит праздники и громкий смех, 
C D 
Пыль дорог и ветра свист. 
       Am G 
Он был везде и всегда своим, 
           D Am 
Влюблял в себя целый свет, 
D Em 
 И гнал всегда свой байк, а не лимузин - 
C D 
 Таких друзей больше нет. 

И в гостиной при свечах 
Он танцевал, как бог. 
Но зато менялся на глазах, 
Только вспомнит шум дорог. 
Все, что имел, тут же тратил 
И, за порог сделав шаг, 
Мой друг давал команду братьям, 
Вверх поднимая кулак. 
                Em C D 
Припев: Ты - летящий вдаль, вдаль ангел. 
                C H7 Em 
   Ты - летящий вдаль, вдаль ангел. 
       C D 
   Ты один только друг, друг на все времена, 
       C D 
   Немного таких среди нас. 
                Am C G 
   Ты - летящий вдаль беспечный ангел. 

Под гитарный жесткий рок, 
Который так любил, 
На Харлее он домчать нас мог 
До небес и звезд любых. 
Но он исчез и никто не знал 
Куда теперь мчит его байк. 
Один бродяга нам сказал, 
Что он отправился в рай. 

Ты - летящий вдаль, вдаль ангел. 
  Ты - летящий вдаль, вдаль ангел. 
  Но стал союзником рая в ту ночь 
  Против тебя одного. 
  Ты - летящий вдаль, вдаль ангел. 
  Ты - летящий вдаль беспечный ангел. 

Ты - летящий вдаль, вдаль ангел. 
  Ты - летящий вдаль, вдаль ангел. 
  Но стал союзником рая в ту ночь 
  Против тебя одного. 
  Ты - летящий вдаль, вдаль ангел. 
  Ты - летящий вдаль беспечный ангел.


Подбор добавила Анна Шевченко 03.03.2011

Ария

Беспечный ангел

7    
Аудио: ВК, ЯМ, Last.fm     Видео: ВК, YT
Оригинальная тональность D#m
Вступление:
E|------------------------------------|
H|----------0-------1-------3-------3-|
G|----------0-0-----0--0-0--0--0-0--0-|
D|-----0---2---2---2--2-2--0--0-0--0--|
A|--0-2---2-----2-3-------------------|
E|-3-----0----------------3-------3---|

E|----------------------------3-----|
H|----------0-------1---------3-----|
G|----------0-0-----0--0-0---0--0---|
D|-----0---2---2---2--2-2---0----0--|
A|--0-2---2-----2-3--------2--------|
E|-3-----0----------------3-------3-|

Куплет играется аналогично вступлению.
            Em
Этот парень был из тех,
    C            G
Кто просто любит жизнь.
                  Em
Любит праздники и громкий смех,
C            D
Пыль дорог и ветра свист.
       Am        G
Он был везде и всегда своим,
           D          Am
Влюблял в себя целый свет,
D                            Em
 И гнал всегда свой байк, а не лимузин -
C                     D
 Таких друзей больше нет.

И в гостиной при свечах
Он танцевал, как бог.
Но зато менялся на глазах,
Только вспомнит шум дорог.
Все, что имел, тут же тратил
И, за порог сделав шаг,
Мой друг давал команду братьям,
Вверх поднимая кулак.
	               Em     C     D
Припев:	  Ты - летящий вдаль, вдаль ангел.
	               C      H7     Em
	  Ты - летящий вдаль, вдаль ангел.
	      C                        D
	  Ты один только друг, друг на все времена,
	      C               D
	  Немного таких среди нас.
	               Am       C       G
	  Ты - летящий вдаль беспечный ангел.

Под гитарный жесткий рок,
Который так любил,
На Харлее он домчать нас мог
До небес и звезд любых.
Но он исчез и никто не знал
Куда теперь мчит его байк.
Один бродяга нам сказал,
Что он отправился в рай.

  Ты - летящий вдаль, вдаль ангел.
  Ты - летящий вдаль, вдаль ангел.
  Но стал союзником рая в ту ночь
  Против тебя одного.
  Ты - летящий вдаль, вдаль ангел.
  Ты - летящий вдаль беспечный ангел.

  Ты - летящий вдаль, вдаль ангел.
  Ты - летящий вдаль, вдаль ангел.
  Но стал союзником рая в ту ночь
  Против тебя одного.
  Ты - летящий вдаль, вдаль ангел.
  Ты - летящий вдаль беспечный ангел.

D#m

← вар. →
E

← вар. →
H

← вар. →
G

← вар. →
D

← вар. →
A

← вар. →
Em

← вар. →
C

← вар. →
Am

← вар. →
H7

← вар. →


Подбор добавил Павел Зарукин 09.09.2010

Ария

Беспечный Ангел

7    
Аудио: ВК, ЯМ, Last.fm     Видео: ВК, YT
Dm               B           F
Этот парень был из тех, кто просто любит жизнь.
                    Dm           B            C
Любит праздники и громкий смех, пыль дорог и ветра свист.
           Gm       F
Он был везде и всегда своим,
             C         Gm
Влюблял в себя целый свет,
C                    Dm
И гнал свой байк, а не лимузин.
B                    C
Таких друзей больше нет.

И в гостиной при свечах он танцевал как бог.
Но зато менялся на глазах, только вспомнит шум дорог.
Всё, что имел, тут же тратил.
И за порог сделав шаг,
Моё друг давал команду братьям,
Вверх поднимая кулак.

                  Dm     B   C
   Ты - летящий вдаль, вдаль ангел.
                  B      A   Dm       
   Ты - летящий вдаль, вдаль ангел.
        B                         C
   Ты один только друг, друг на все времена.
        B                C
   Не много таких среди нас.
                  Gm      B     F
   Ты - летящий вдаль беспечный ангел.
   
Под гитарный жесткий рок, который так любил.
На Харлее он домчать нас мог до небес и звёзд любых.
Но он исчез и никто не знал,
Куда теперь мчит его байк.
Один бродяга нам сказал,
Что он отправился в рай.

   Ты - летящий вдаль, вдаль ангел.
   Ты - летящий вдаль, вдаль ангел.
   Но ад стал союзником рая в ту ночь.
   Против тебя одного
   Ты - летящий вдаль беспечный ангел.


Подбор добавила Катька Пименова 13.09.2010

Ария

Беспечный ангел

6    
Аудио: ВК, ЯМ, Last.fm     Видео: ВК, YT
Em
Этот парень был из тех
    C            G
Кто просто любит жизнь
                  Em
Любит праздники и громкий смех
  C          D
Пыль дорог и ветра свист.
         Am        G
Он был везде и всегда своим
   D                Am
Влюблял в себя целый свет
   D               Em
И гнал свой Байк, а не лимузин
      C             D
Таких друзей больше нет...

       *****
            Em
И в гостинной при свечах
    C            G
Он танцевал, как бог
                  Em
Но зато менялся на глазах
  C          D
Только вспомнит шум дорог
         Am        G
Все что имел - тут же тратил
   D                Am
И за порог сделав шаг
   D               Em
Он вдруг давал команду братьям
      C             D
Вверх поднимая кулак...

             Em    C     D
П:Ты летящий вдаль, вдаль Ангел,
            C     Н7    Em
 Ты летящий вдаль, вдаль Ангел...
     C                 D
 Ты один только друг - друг на все времена
    C                 D
 Не много таких среди нас...
            Am    C         G
 Ты летящий вдаль Беспечный Ангел.

            Em
Под гитарный жесткий Рок
    C            G
Который так любил
                  Em
На "Харлее" он домчать нас мог
  C          D
До небес и звезд любых.
         Am        G
Но он исчез и никто не знал
   D                Am
Куда теперь мчит его байк
   D               Em
Один бродяга нам сказал
      C             D
Что он отправился в рай!

             Em     C     G
  Ты летящий вдаль, вдаль Ангел
            C     Н7    Em
  Ты летящий вдаль, вдаль Ангел.
     C                 D
  Но ад стал союзником рая в ту ночь
   C              D
  Бросив тебя одного...
             Am      C       G
  Ты летящий вдаль беспечный Ангел.
              Am     C    D
  И летящий в даль беспечный ангел


Подбор добавил Егор Шабуров 19.08.2010

Ария

Беспечный ангел

6    
Аудио: ВК, ЯМ, Last.fm     Видео: ВК, YT
G6           Em 
Этот парень был из тех, 
      C           G 
Кто просто любит жизнь. 
G6                 Em 
Любит праздники и громкий смех, 
 C            D 
Пыль дорог и ветра свист. 
          Am        G 
Он был везде и всегда своим, 
             D         Am 
Влюблял в себя целый свет, 
D                           Em 
 И гнал всегда свой байк, а не лимузин - 
C                     D 
 Таких друзей больше нет. 

И в гостиной при свечах 
Он танцевал, как бог. 
Но зато менялся на глазах, 
Только вспомнит шум дорог. 
Все, что имел, тут же тратил 
И, за порог сделав шаг, 
Мой друг давал команду братьям, 
Вверх поднимая кулак. 
                
Припев: 
                  Em     C   D 
   Ты - летящий вдаль, вдаль ангел. 
                  C      H7  Em 
   Ты - летящий вдаль, вдаль ангел. 
        C                         D 
   Ты один только друг, друг на все времена, 
       C                D 
   Немного таких среди нас. 
                  Am      C     G 
   Ты - летящий вдаль беспечный ангел. 

Под гитарный жесткий рок, 
Который так любил, 
На Харлее он домчать нас мог 
До небес и звезд любых. 
Но он исчез и никто не знал 
Куда теперь мчит его байк. 
Один бродяга нам сказал, 
Что он отправился в рай. 

Ты - летящий вдаль, вдаль ангел. 
  Ты - летящий вдаль, вдаль ангел. 
  Но стал союзником рая в ту ночь 
  Против тебя одного. 
  Ты - летящий вдаль, вдаль ангел. 
  Ты - летящий вдаль беспечный ангел. 

Ты - летящий вдаль, вдаль ангел. 
  Ты - летящий вдаль, вдаль ангел. 
  Но стал союзником рая в ту ночь 
  Против тебя одного. 
  Ты - летящий вдаль, вдаль ангел. 
  Ты - летящий вдаль беспечный ангел.


Подбор добавил Илья Пророк 16.04.2011

Ария

Беспечный ангел

4    
Аудио: ВК, ЯМ, Last.fm     Видео: ВК, YT
 Транспонировать:  

Песня играется в тональности Gb, и гитару надо перестроить:
опустить строй на пол тона (один лад).
Проигрыш:

     G             Em                     C
eb|----------------|---------------------|---------------------|
Bb|----------------|-----------0---------|---------1-----------|
Gb|*---------------|---------0-----0-----|-------0-------0---0-|
Db|*-------------0-|-------2---------0---|-----2-------2-------|
Ab|--------0---2---|-----2-------------2-|-3-------------3-----|
Eb|----3-----------|-0-------------------|---------------------|

  G                           G

eb|--------------------------------||------------3------------||
Bb|----------3-----------------3---||---------3-----3---------||
Gb|-------0-------0----0-----0----*||-------0---------0------*||
Db|----0-------0-----------0------*||----0--------------0----*||
Ab|-----------------2--------------||-------------------------||
Eb|-3--------------------3---------||-3--------------------3--||

Куплет:

Этот парень был из тех...
    G         Em                C
eb|-----------|-------------------|----------------------------|
Bb|-----------|----------0--------|--------1-------------------|
Gb|-----------|--------0---0------|------0-----0---0-----------|
Db|--------0--|------2-------0----|----2-----2-----------------|
Ab|----0-2----|----2-----------2--|--3-----------3-------------|
Eb|--3--------|--0----------------|----------------------------|

 G
eb|------------------------------------------------------------|
Bb|------------3-----------------------3-----------------------|
Gb|--------0---------0-----0---------0-------------------------|
Db|----0----------0--------------0-----------------------------|
Ab|---------------------2--------------------------------------|
Eb|--3-----------------------3---------------------------------|

    G         Em                C
eb|-----------|-------------------|----------------------------|
Bb|-----------|----------0--------|--------1-------------------|
Gb|-----------|--------0---0------|------0-----0---0-----------|
Db|--------0--|------2-------0----|----2-----2-----------------|
Ab|----0-2----|----2-----------2--|--3-----------3-------------|
Eb|--3--------|--0----------------|----------------------------|

   D                        D
eb|--------2-3-2I3I2-------|--------2-0I2?0--------------------|
Bb|------3-----------3-----|------3---------3------------------|
Gb|----2---------------2---|----2-------------2----------------|
Db|--0---------------------|--0--------------------------------|
Ab|------------------------|-----------------------------------|
Eb|------------------------|-----------------------------------|

    Am                G                 D
eb|---------0-------|---------2-------|-------2-3-2Н3р2--------|
Bb|-------1---1-----|-------2---2-----|-----3-----------2------|
Gb|-----2-------2---|-----0-------0---|---2--------------------|
Db|---2-----------2-|---0-------------|-0----------------------|
Ab|-0---------------|-----------------|------------------------|
Eb|-----------------|-3-------------3-|------------------------|

 Am                D
eb|---------0-------|-------2-3-2Н3р2--------------------------|
Bb|-------1---1-----|-----3-----------3------------------------|
Gb|-----2-------2---|---2--------------------------------------|
Db|---2-----------2-|-0----------------------------------------|
Ab|-0---------------|------------------------------------------|
Eb|-----------------|------------------------------------------|

    Em
eb|-----------------|---------0-------|-2--3-3-3-2-------------|
Bb|---------0-------|-------1---1-----|-3--3-3-3-3-------------|
Gb|-------0---0-----|-----0-------0---|-2--2-2-2-2-------------|
Db|-----2-------2---|---2-----------2-|-0--------0-------------|
Ab|---2-----------2-|-3---------------|------------------------|
Eb|-0---------------|-----------------|------------------------|

Версия  2 :
 Повторение Версия  1. (Добавляются перкуссии.)

Chorus 1 :

 Врубаем дисторшен + продолжют звучать аккорды акустики--------⁄
    Em   C     D      C    Н    Em     C    D     C    D
eb|-----------------|----------------|---------|---------------|
Bb|-----------------|----------------|---------|---------------|
Gb|------5-----7----|-5----4---------|-5----7--|--5----7⁄------|
Db|-2----5-----7----|-5----4----2----|-5----7--|--5----7⁄------|
Ab|-2----3-----5----|-3----2----2----|-3----5--|--3----5⁄------|
Eb|-0---------------|-----------0----|---------|---------------|

Чистый звук---------------------------------------------------⁄
    Am                C                 G
eb|---------0-------|---------0-------|---------3--------------|
Bb|-------1---1-----|-------1---1-----|-------3---3------------|
Gb|-----2-------2---|-----0-------0---|-----0-------0----------|
Db|---2-------------|---2-------------|---0-----------0--------|
Ab|-0-------------0-|-3-------------3-|------------------------|
Eb|-----------------|-----------------|-3---------------3------|

Solo: ( Здесь играют две гитары одновременно )

G         Em                C                 G
eb|----------|-----------------|-------------------------------|
Bb|----------|---------0-------|-------1-----------------------|
Gb|*---------|-------0---0-----|-----0-----0---0---------------|
Db|*-------0-|-----2-------0---|---2-----2---------------------|
Ab|----0-2---|---2-----------2-|-3-----------3-----------------|
Eb|--3-------|-0---------------|-------------------------------|

  /--------------- 1 ---------|/------------- 2 ----|
                     G
eb|---------------------------||---------3--------------------||
Bb|-------3---------------3---||-------3---3------------------||
Gb|-----0-----0---------0----*||-----0-------0---------------*||
Db|---0-----0-----0---0------*||---0-----------0-------------*||
Ab|-------------2-------------||------------------------------||
Eb|-3---------------3---------||-3---------------3------------||

eb|--------------|---------------------|-----------------------|
Bb|--------------|--3/5---5---5--5⁄3---|--3/5---5---5⁄3--3/5---|
Gb|*--4⁄2--0--2--|---------------------|-----------------------|
Db|*-------------|---------------------|-----------------------|
Ab|--------------|---------------------|-----------------------|
Eb|--------------|---------------------|-----------------------|

   /------------------ 1 -----|/------------- 2 ----|
eb|---------------------------||-3~~~-------------------------||
Bb|-3-------------------------||------------------------------||
Gb|--------------------------*||-----------------------------*||
Db|--------------------------*||-----------------------------*||
Ab|---------------------------||------------------------------||
Eb|---------------------------||------------------------------||

Версия  3: (Как и в соло, здесь играют две гитары.
Вторая подыгрывает первой).

    G         Em                C
eb|---------|-----------------|--------------------------------|
Bb|---------|---------0-------|-------1------------------------|
Gb|---------|-------0---0-----|-----0-----0---0----------------|
Db|-------0-|-----2-------0---|---2-----2----------------------|
Ab|---0-2---|---2-----------2-|-3-----------3------------------|
Eb|-3-------|-0---------------|--------------------------------|

 G
eb|------------------------------------------------------------|
Bb|-----------3---------------------3--------------------------|
Gb|--------0-------0----0--------0-----------------------------|
Db|-----0-------0-------------0--------------------------------|
Ab|-------------------2----------------------------------------|
Eb|--3---------------------3-----------------------------------|

eb|------------------------------------------------------------|
Bb|-----------------------------------------------8⁄7----------|
Gb|---------------------------------------------------7~~~-----|
Db|------------------------------------------------------------|
Ab|------------------------------------------------------------|
Eb|------------------------------------------------------------|

    G         Em                C
eb|---------|-----------------|--------------------------------|
Bb|---------|---------0-------|-------1------------------------|
Gb|---------|-------0---0-----|-----0-----0---0----------------|
Db|-------0-|-----2-------0---|---2-----2----------------------|
Ab|---0-2---|---2-----------2-|-3-----------3------------------|
Eb|-3-------|-0---------------|--------------------------------|

 D                     D
eb|-------2-3-2Н3Н2-----|-------2-0Н2р0------------------------|
Bb|-----3-----------3---|-----3---------3----------------------|
Gb|---2---------------2-|---2-------------2--------------------|
Db|-0-------------------|-0------------------------------------|
Ab|---------------------|--------------------------------------|
Eb|---------------------|--------------------------------------|

eb|----------------------------------|-------------------------|
Bb|-------------------------5------7-|----------------------5~-|
Gb|---------------------4/5----5/7---|------------------8⁄7----|
Db|----------------------------------|-------------------------|
Ab|----------------------------------|-------------------------|
Eb|----------------------------------|-------------------------|

   Am                G                 D
eb|---------0-------|---------2-------|-------2-3-2Н3р2--------|
Bb|-------1---1-----|-------2---2-----|-----3-----------2------|
Gb|-----2-------2---|-----0-------0---|---2--------------------|
Db|---2-----------2-|---0-------------|-0----------------------|
Ab|-0---------------|-----------------|------------------------|
Eb|-----------------|-3-------------3-|------------------------|

eb|------------------------------------------------------------|
Bb|-------------------3/5--------------------------------------|
Gb|-----------------------5~~~---------------------------------|
Db|------------------------------------------------------------|
Ab|------------------------------------------------------------|
Eb|------------------------------------------------------------|

   Em
eb|-----------------|---------0-------|-2--3-3---3-3---2-------|
Bb|---------0-------|-------1---1-----|-3--3-3---3-3---3-------|
Gb|-------0---0-----|-----0-------0---|-2--2-2---2-2---2-------|
Db|-----2-------2---|---2-----------2-|-0--------------0-------|
Ab|---2-----------2-|-3---------------|------------------------|
Eb|-0---------------|-----------------|------------------------|

eb|------------------------------------------------------------|
Bb|---------------------------------------------5-----7-----8--|
Gb|-----------------------------------------4/5---5/7---7/9----|
Db|------------------------------------------------------------|
Ab|------------------------------------------------------------|
Eb|------------------------------------------------------------|

Chorus 2 :

  Врубаем дисторшен + продолжют звучать аккорды акустики------⁄
    Em   C     D      Em   Н    Em     C    D      C    D
eb|-----------------|----------------|-----------|-------------|
Bb|-----------------|----------------|-----------|-------------|
Gb|------5-----7----|-3----4---------|-5----7----|-5----7⁄-----|
Db|-2----5-----7----|-5----4----2----|-5----7----|-5----7⁄-----|
Ab|-2----3-----5----|-3----2----2----|-3----5----|-3----5⁄-----|
Eb|-0---------------|-----------0----|-----------|-------------|

 Чистый звук---------------------------------------------------⁄
    Am                C                 G
eb|---------0-------|---------0-------|---------3--------------|
Bb|-----1-----1-----|-----1-----1-----|-----3-----3------------|
Gb|-------2-----2---|-------0-----0---|-------0-----0----------|
Db|---2-------------|---2-------------|---0-----------0--------|
Ab|-0-------------0-|-3-------------3-|------------------------|
Eb|-----------------|-----------------|-3---------------3------|

  G
|---------3-------|
|-----3-----3-----|
|-------0-----0---|
|---0-----------0-|
|-----------------|
|-3---------------|

 Врубаем дисторшен + продолжют звучать аккорды акустики--------⁄
    Em   C     D      Em   Н    Em     C    D      C    D
eb|-----------------|----------------|-----------|-------------|
Bb|-----------------|----------------|-----------|-------------|
Gb|------5-----7----|-3----4---------|-5----7----|-5----7⁄-----|
Db|-2----5-----7----|-3----4----2----|-5----7----|-5----7⁄-----|
Ab|-2----3-----5----|-2----2----2----|-3----5----|-3----5⁄-----|
Eb|-0---------------|-----------0----|-----------|-------------|

 Чистый звук---------------------------------------------------⁄
    Am                C                 G
eb|---------0-------|---------0-------|---------3--------------|
Bb|-----1-----1-----|-----1-----1-----|-----3-----3------------|
Gb|-------2-----2---|-------0-----0---|-------0-----0----------|
Db|---2-------------|---2-------------|---0-----------0--------|
Ab|-0-------------0-|-3-------------3-|------------------------|
Eb|-----------------|-----------------|-3---------------3------|

 Am   C    G
eb|-0---------0-------------2---2--2--2...2--------------------|
Bb|-1---------1------------2----2--2--2...2--------------------|
Gb|-2---------0-----------0-----0--0--0...0--------------------|
Db|-2---------2----------0------0--0--0...0--------------------|
Ab|-0---------3---------2-------2--2--2...2--------------------|
Eb|--------------------3--------3--3--3...3--------------------|

Куплет 1:
G           Em
Этот парень был из тех,
    C            G
Кто просто любит жизнь.

 G                Em
Любит праздники и громкий смех,
C            D
Пыль дорог и ветра свист.
       Am        G
Он был везде и всегда своим,
           D          Am
Влюблял в себя целый свет,
D                            Em
И гнал всегда свой байк, а не лимузин.
C                     D
Таких друзей больше нет.

Версия  2 :
И в гостиной при свечах
Он танцевал, как бог.
Но зато менялся на глазах,
Только вспомнит шум дорог.
Все, что имел, тут же тратил
И, за порог сделав шаг,
Мой друг давал команду братьям,
Вверх поднимая кулак.

Chorus 1 :
               E5     C5    D5
  Ты - летящий вдаль, вдаль ангел.
               C5     Н5    E5
  Ты - летящий вдаль, вдаль ангел.
          C5                   D5
  Ты один только друг, друг на все времена,
  C5                  D5
  Немного таких среди нас.
               Am       C       G
  Ты - летящий вдаль беспечный ангел.

Версия  3 :
Под гитарный жесткий рок,
Который так любил,
На Харлее он домчать нас мог
До небес и звезд любых.
Но он исчез и никто не знал
Куда теперь мчит его байк.
Один бродяга нам сказал,
Что он отправился в рай.

Chorus 2 :
  Ты - летящий вдаль, вдаль ангел.
  Ты - летящий вдаль, вдаль ангел.
  Но стал союзником рая в ту ночь
  Против тебя одного.

  Ты - летящий вдаль, вдаль ангел.
  Ты - летящий вдаль беспечный ангел.

  Ты - летящий вдаль, вдаль ангел.
  Ты - летящий вдаль, вдаль ангел.
  Но стал союзником рая в ту ночь
  Против тебя одного.


  Ты - летящий вдаль, вдаль ангел.
  Ты - летящий вдаль беспечный ангел.
G

← вар. → Em

← вар. → C

← вар. → D

← вар. → Am

← вар. → E5

← вар. → C5

← вар. → D5

← вар. →


Подбор добавил Саша Демиденко 21.03.2011

Ария

Беспечный ангел

2    
Аудио: ВК, ЯМ, Last.fm     Видео: ВК, YT
Перебор: бас, 3, 2, 3, 1, 3, 2, 3

             Am
Этот парень был из тех,
      F         C
Кто просто любит жизнь.
                   Am
Любит праздники и громкий смех,
F             G
Пыль дорог и ветра свист.
          Dm       C
Он был везде и всегда своим,
            G         Dm
Влюблял в себя целый свет,
G                          Am
И гнал всегда свой байк, а не лимузин -
F                    G
Таких друзей больше нет.

И в гостиной при свечах
Он танцевал, как бог.
Но зато менялся на глазах,
Только вспомнит шум дорог.
Все, что имел, тут же тратил
И, за порог сделав шаг,
Мой друг давал команду братьям,
Вверх поднимая кулак.

Припев:
              Am      F   G
Ты - летящий вдаль, вдаль ангел.
              F      E    Am
Ты - летящий вдаль, вдаль ангел.
     F                        G
Ты один только друг, друг на все времена,
    F                G
Немного таких среди нас.
              Dm       F     C
Ты - летящий вдаль беспечный ангел.

Под гитарный жесткий рок, который так любил,
На Харлее он домчать нас мог до небес и звезд любых.
Но он исчез и никто не знал куда теперь мчит его байк.
Один бродяга нам сказал, что он отправился в рай.

Припев:
Ты - летящий вдаль, вдаль ангел.
Ты - летящий вдаль, вдаль ангел.
Но стал союзником рая в ту ночь
Против тебя одного.
Ты - летящий вдаль, вдаль ангел.
Ты - летящий вдаль беспечный ангел.



Ария

беспечный ангел

1    
Аудио: ВК, ЯМ, Last.fm     Видео: ВК, YT
Куплет играется аналогично вступлению.
            Em
Этот парень был из тех,
    C            G
Кто просто любит жизнь.
                  Em
Любит праздники и громкий смех,
C            D
Пыль дорог и ветра свист.
       Am        G
Он был везде и всегда своим,
           D          Am
Влюблял в себя целый свет,
D                            Em
 И гнал всегда свой байк, а не лимузин -
C                     D
 Таких друзей больше нет.

И в гостиной при свечах
Он танцевал, как бог.
Но зато менялся на глазах,
Только вспомнит шум дорог.
Все, что имел, тут же тратил
И, за порог сделав шаг,
Мой друг давал команду братьям,
Вверх поднимая кулак.
	               Em     C     D
Припев:	  Ты - летящий вдаль, вдаль ангел.
	               C      H7     Em
	  Ты - летящий вдаль, вдаль ангел.
	      C                        D
	  Ты один только друг, друг на все времена,
	      C               D
	  Немного таких среди нас.
	               Am       C       G
	  Ты - летящий вдаль беспечный ангел.

Под гитарный жесткий рок,
Который так любил,
На Харлее он домчать нас мог
До небес и звезд любых.
Но он исчез и никто не знал
Куда теперь мчит его байк.
Один бродяга нам сказал,
Что он отправился в рай.

  Ты - летящий вдаль, вдаль ангел.
  Ты - летящий вдаль, вдаль ангел.
  Но стал союзником рая в ту ночь
  Против тебя одного.
  Ты - летящий вдаль, вдаль ангел.
  Ты - летящий вдаль беспечный ангел.

  Ты - летящий вдаль, вдаль ангел.
  Ты - летящий вдаль, вдаль ангел.
  Но стал союзником рая в ту ночь
  Против тебя одного.
  Ты - летящий вдаль, вдаль ангел.
  Ты - летящий вдаль беспечный ангел.


Подбор добавил Серега Базук 17.12.2011

Ария

Беспечный ангел

-1    
Аудио: ВК, ЯМ, Last.fm     Видео: ВК, YT
Вступление:  
E------------------------------------- 
H-----------0-------1-------3-------3- 
G----------0-0-----0--0-0--0--0-0--0-- 
D-----0---2---2---2--2-2--0--0-0--0--- 
A--0-2---2-----2-3-------------------- 
E-3-----0----------------3-------3---- 

E----------------------------3-----|
H-----------0-------1---------3----|
G----------0-0-----0--0-0---0--0---|
D-----0---2---2---2--2-2---0----0--|
A--0-2---2-----2-3--------2--------|
E-3-----0----------------3-------3-|

Куплет играется аналогично вступлению. 
            Em
Этот парень был из тех,
    C            G
Кто просто любит жизнь.
                  Em
Любит праздники и громкий смех,
C            D
Пыль дорог и ветра свист.
       Am        G
Он был везде и всегда своим,
           D          Am
Влюблял в себя целый свет,
D                            Em
 И гнал всегда свой байк, а не лимузин -
C                     D
 Таких друзей больше нет.

И в гостиной при свечах
Он танцевал, как бог.
Но зато менялся на глазах,
Только вспомнит шум дорог.
Все, что имел, тут же тратил
И, за порог сделав шаг,
Мой друг давал команду братьям,
Вверх поднимая кулак.
	               Em     C     D
Припев:	  Ты - летящий вдаль, вдаль ангел.
	               C      H7     Em
	  Ты - летящий вдаль, вдаль ангел.
	      C                        D
	  Ты один только друг, друг на все времена,
	      C               D
	  Немного таких среди нас.
	               Am       C       G
	  Ты - летящий вдаль беспечный ангел.

Под гитарный жесткий рок,
Который так любил,
На Харлее он домчать нас мог
До небес и звезд любых.
Но он исчез и никто не знал
Куда теперь мчит его байк.
Один бродяга нам сказал,
Что он отправился в рай.

  Ты - летящий вдаль, вдаль ангел.
  Ты - летящий вдаль, вдаль ангел.
  Но стал союзником рая в ту ночь
  Против тебя одного.
  Ты - летящий вдаль, вдаль ангел.
  Ты - летящий вдаль беспечный ангел.

  Ты - летящий вдаль, вдаль ангел.
  Ты - летящий вдаль, вдаль ангел.
  Но стал союзником рая в ту ночь
  Против тебя одного.
  Ты - летящий вдаль, вдаль ангел.
  Ты - летящий вдаль беспечный ангел. 


Подбор добавила Юлия Васильева 11.04.2013


Видеоуроки игры на гитаре

Уроки гитары: Ария - Беспечный Ангел
Беспечный ангел
Ария


2011—2013 Музыкальный сайт «Три аккорда»
Группа ВКонтакте

© Уважаемые посетители сайта, помните об авторских правах: авторские права на предоставленную информацию принадлежат правообладателям.

Информация для правообладателей:
Размещенные видео уроки вставлены на сайт с помощью официального сервиса вставки Ютуба с каналов преподавателей и школ.
Тексты песен размещаются на сайте согласно ст. 1274 ГК РФ (ч.1 пп. 1 и 2) в учебных целях.
Аккорды к песням публикуются на сайте согласно ст. 1274 (ч.3) и ст. 1274 ГК РФ (ч.1 пп. 1 и 2) в учебных целях.
По вопросам связанными с авторскими и смежными правами пишите на: 3akk.ru@gmail.com.